ISO-10303-21;
HEADER;
/* Generated by software containing ST-Developer
 * from STEP Tools, Inc. (www.steptools.com) 
 */

FILE_DESCRIPTION(
/* description */ (''),
/* implementation_level */ '2;1');

FILE_NAME(
/* name */ 'C:\\Users\\raccy_lai\\Desktop\\DN-90ELMA\\ISOF-BL-63.stp',
/* time_stamp */ '2016-07-22T17:01:52+08:00',
/* author */ ('raccy_lai'),
/* organization */ (''),
/* preprocessor_version */ 'ST-DEVELOPER v16.1',
/* originating_system */ 'Autodesk Inventor 2016',
/* authorisation */ '');

FILE_SCHEMA (('AUTOMOTIVE_DESIGN { 1 0 10303 214 3 1 1 }'));
ENDSEC;

DATA;
#10=MECHANICAL_DESIGN_GEOMETRIC_PRESENTATION_REPRESENTATION('',(#13),#285);
#11=SHAPE_REPRESENTATION_RELATIONSHIP('SRR','None',#294,#12);
#12=ADVANCED_BREP_SHAPE_REPRESENTATION('',(#14),#284);
#13=STYLED_ITEM('',(#303),#14);
#14=MANIFOLD_SOLID_BREP('\X2\5BE69AD4\X0\1',#163);
#15=PLANE('',#180);
#16=PLANE('',#184);
#17=PLANE('',#188);
#18=PLANE('',#189);
#19=FACE_BOUND('',#48,.T.);
#20=FACE_BOUND('',#50,.T.);
#21=FACE_BOUND('',#52,.T.);
#22=FACE_BOUND('',#54,.T.);
#23=FACE_BOUND('',#56,.T.);
#24=FACE_BOUND('',#58,.T.);
#25=FACE_BOUND('',#59,.T.);
#26=FACE_BOUND('',#60,.T.);
#27=FACE_BOUND('',#61,.T.);
#28=FACE_BOUND('',#62,.T.);
#29=FACE_BOUND('',#64,.T.);
#30=FACE_BOUND('',#66,.T.);
#31=FACE_BOUND('',#68,.T.);
#32=FACE_BOUND('',#71,.T.);
#33=FACE_BOUND('',#72,.T.);
#34=FACE_BOUND('',#73,.T.);
#35=FACE_BOUND('',#74,.T.);
#36=FACE_OUTER_BOUND('',#47,.T.);
#37=FACE_OUTER_BOUND('',#49,.T.);
#38=FACE_OUTER_BOUND('',#51,.T.);
#39=FACE_OUTER_BOUND('',#53,.T.);
#40=FACE_OUTER_BOUND('',#55,.T.);
#41=FACE_OUTER_BOUND('',#57,.T.);
#42=FACE_OUTER_BOUND('',#63,.T.);
#43=FACE_OUTER_BOUND('',#65,.T.);
#44=FACE_OUTER_BOUND('',#67,.T.);
#45=FACE_OUTER_BOUND('',#69,.T.);
#46=FACE_OUTER_BOUND('',#70,.T.);
#47=EDGE_LOOP('',(#117));
#48=EDGE_LOOP('',(#118));
#49=EDGE_LOOP('',(#119));
#50=EDGE_LOOP('',(#120));
#51=EDGE_LOOP('',(#121));
#52=EDGE_LOOP('',(#122));
#53=EDGE_LOOP('',(#123));
#54=EDGE_LOOP('',(#124));
#55=EDGE_LOOP('',(#125));
#56=EDGE_LOOP('',(#126));
#57=EDGE_LOOP('',(#127));
#58=EDGE_LOOP('',(#128));
#59=EDGE_LOOP('',(#129));
#60=EDGE_LOOP('',(#130));
#61=EDGE_LOOP('',(#131));
#62=EDGE_LOOP('',(#132));
#63=EDGE_LOOP('',(#133));
#64=EDGE_LOOP('',(#134));
#65=EDGE_LOOP('',(#135));
#66=EDGE_LOOP('',(#136));
#67=EDGE_LOOP('',(#137));
#68=EDGE_LOOP('',(#138));
#69=EDGE_LOOP('',(#139));
#70=EDGE_LOOP('',(#140));
#71=EDGE_LOOP('',(#141));
#72=EDGE_LOOP('',(#142));
#73=EDGE_LOOP('',(#143));
#74=EDGE_LOOP('',(#144));
#75=CIRCLE('',#166,4.5);
#76=CIRCLE('',#167,4.5);
#77=CIRCLE('',#169,4.5);
#78=CIRCLE('',#170,4.5);
#79=CIRCLE('',#172,4.5);
#80=CIRCLE('',#173,4.5);
#81=CIRCLE('',#175,4.5);
#82=CIRCLE('',#176,4.5);
#83=CIRCLE('',#178,65.);
#84=CIRCLE('',#179,65.);
#85=CIRCLE('',#181,35.);
#86=CIRCLE('',#183,35.);
#87=CIRCLE('',#185,28.6);
#88=CIRCLE('',#187,28.6);
#89=VERTEX_POINT('',#244);
#90=VERTEX_POINT('',#246);
#91=VERTEX_POINT('',#249);
#92=VERTEX_POINT('',#251);
#93=VERTEX_POINT('',#254);
#94=VERTEX_POINT('',#256);
#95=VERTEX_POINT('',#259);
#96=VERTEX_POINT('',#261);
#97=VERTEX_POINT('',#264);
#98=VERTEX_POINT('',#266);
#99=VERTEX_POINT('',#269);
#100=VERTEX_POINT('',#272);
#101=VERTEX_POINT('',#275);
#102=VERTEX_POINT('',#278);
#103=EDGE_CURVE('',#89,#89,#75,.T.);
#104=EDGE_CURVE('',#90,#90,#76,.T.);
#105=EDGE_CURVE('',#91,#91,#77,.T.);
#106=EDGE_CURVE('',#92,#92,#78,.T.);
#107=EDGE_CURVE('',#93,#93,#79,.T.);
#108=EDGE_CURVE('',#94,#94,#80,.T.);
#109=EDGE_CURVE('',#95,#95,#81,.T.);
#110=EDGE_CURVE('',#96,#96,#82,.T.);
#111=EDGE_CURVE('',#97,#97,#83,.T.);
#112=EDGE_CURVE('',#98,#98,#84,.T.);
#113=EDGE_CURVE('',#99,#99,#85,.T.);
#114=EDGE_CURVE('',#100,#100,#86,.T.);
#115=EDGE_CURVE('',#101,#101,#87,.T.);
#116=EDGE_CURVE('',#102,#102,#88,.T.);
#117=ORIENTED_EDGE('',*,*,#103,.F.);
#118=ORIENTED_EDGE('',*,*,#104,.F.);
#119=ORIENTED_EDGE('',*,*,#105,.F.);
#120=ORIENTED_EDGE('',*,*,#106,.F.);
#121=ORIENTED_EDGE('',*,*,#107,.F.);
#122=ORIENTED_EDGE('',*,*,#108,.F.);
#123=ORIENTED_EDGE('',*,*,#109,.F.);
#124=ORIENTED_EDGE('',*,*,#110,.F.);
#125=ORIENTED_EDGE('',*,*,#111,.F.);
#126=ORIENTED_EDGE('',*,*,#112,.T.);
#127=ORIENTED_EDGE('',*,*,#111,.T.);
#128=ORIENTED_EDGE('',*,*,#104,.T.);
#129=ORIENTED_EDGE('',*,*,#106,.T.);
#130=ORIENTED_EDGE('',*,*,#108,.T.);
#131=ORIENTED_EDGE('',*,*,#110,.T.);
#132=ORIENTED_EDGE('',*,*,#113,.F.);
#133=ORIENTED_EDGE('',*,*,#114,.F.);
#134=ORIENTED_EDGE('',*,*,#113,.T.);
#135=ORIENTED_EDGE('',*,*,#114,.T.);
#136=ORIENTED_EDGE('',*,*,#115,.F.);
#137=ORIENTED_EDGE('',*,*,#116,.F.);
#138=ORIENTED_EDGE('',*,*,#115,.T.);
#139=ORIENTED_EDGE('',*,*,#116,.T.);
#140=ORIENTED_EDGE('',*,*,#112,.F.);
#141=ORIENTED_EDGE('',*,*,#103,.T.);
#142=ORIENTED_EDGE('',*,*,#105,.T.);
#143=ORIENTED_EDGE('',*,*,#107,.T.);
#144=ORIENTED_EDGE('',*,*,#109,.T.);
#145=CYLINDRICAL_SURFACE('',#165,4.5);
#146=CYLINDRICAL_SURFACE('',#168,4.5);
#147=CYLINDRICAL_SURFACE('',#171,4.5);
#148=CYLINDRICAL_SURFACE('',#174,4.5);
#149=CYLINDRICAL_SURFACE('',#177,65.);
#150=CYLINDRICAL_SURFACE('',#182,35.);
#151=CYLINDRICAL_SURFACE('',#186,28.6);
#152=ADVANCED_FACE('',(#36,#19),#145,.F.);
#153=ADVANCED_FACE('',(#37,#20),#146,.F.);
#154=ADVANCED_FACE('',(#38,#21),#147,.F.);
#155=ADVANCED_FACE('',(#39,#22),#148,.F.);
#156=ADVANCED_FACE('',(#40,#23),#149,.T.);
#157=ADVANCED_FACE('',(#41,#24,#25,#26,#27,#28),#15,.T.);
#158=ADVANCED_FACE('',(#42,#29),#150,.F.);
#159=ADVANCED_FACE('',(#43,#30),#16,.T.);
#160=ADVANCED_FACE('',(#44,#31),#151,.T.);
#161=ADVANCED_FACE('',(#45),#17,.T.);
#162=ADVANCED_FACE('',(#46,#32,#33,#34,#35),#18,.T.);
#163=CLOSED_SHELL('',(#152,#153,#154,#155,#156,#157,#158,#159,#160,#161,
#162));
#164=AXIS2_PLACEMENT_3D('placement',#242,#190,#191);
#165=AXIS2_PLACEMENT_3D('',#243,#192,#193);
#166=AXIS2_PLACEMENT_3D('',#245,#194,#195);
#167=AXIS2_PLACEMENT_3D('',#247,#196,#197);
#168=AXIS2_PLACEMENT_3D('',#248,#198,#199);
#169=AXIS2_PLACEMENT_3D('',#250,#200,#201);
#170=AXIS2_PLACEMENT_3D('',#252,#202,#203);
#171=AXIS2_PLACEMENT_3D('',#253,#204,#205);
#172=AXIS2_PLACEMENT_3D('',#255,#206,#207);
#173=AXIS2_PLACEMENT_3D('',#257,#208,#209);
#174=AXIS2_PLACEMENT_3D('',#258,#210,#211);
#175=AXIS2_PLACEMENT_3D('',#260,#212,#213);
#176=AXIS2_PLACEMENT_3D('',#262,#214,#215);
#177=AXIS2_PLACEMENT_3D('',#263,#216,#217);
#178=AXIS2_PLACEMENT_3D('',#265,#218,#219);
#179=AXIS2_PLACEMENT_3D('',#267,#220,#221);
#180=AXIS2_PLACEMENT_3D('',#268,#222,#223);
#181=AXIS2_PLACEMENT_3D('',#270,#224,#225);
#182=AXIS2_PLACEMENT_3D('',#271,#226,#227);
#183=AXIS2_PLACEMENT_3D('',#273,#228,#229);
#184=AXIS2_PLACEMENT_3D('',#274,#230,#231);
#185=AXIS2_PLACEMENT_3D('',#276,#232,#233);
#186=AXIS2_PLACEMENT_3D('',#277,#234,#235);
#187=AXIS2_PLACEMENT_3D('',#279,#236,#237);
#188=AXIS2_PLACEMENT_3D('',#280,#238,#239);
#189=AXIS2_PLACEMENT_3D('',#281,#240,#241);
#190=DIRECTION('axis',(0.,0.,1.));
#191=DIRECTION('refdir',(1.,0.,0.));
#192=DIRECTION('center_axis',(0.,1.,0.));
#193=DIRECTION('ref_axis',(-1.83697019872103E-16,0.,1.));
#194=DIRECTION('center_axis',(0.,1.,0.));
#195=DIRECTION('ref_axis',(-1.83697019872103E-16,0.,1.));
#196=DIRECTION('center_axis',(0.,-1.,0.));
#197=DIRECTION('ref_axis',(-1.83697019872103E-16,0.,1.));
#198=DIRECTION('center_axis',(0.,1.,0.));
#199=DIRECTION('ref_axis',(-1.,0.,-1.22464679914735E-16));
#200=DIRECTION('center_axis',(0.,1.,0.));
#201=DIRECTION('ref_axis',(-1.,0.,-1.22464679914735E-16));
#202=DIRECTION('center_axis',(0.,-1.,0.));
#203=DIRECTION('ref_axis',(-1.,0.,-1.22464679914735E-16));
#204=DIRECTION('center_axis',(0.,1.,0.));
#205=DIRECTION('ref_axis',(6.12323399573677E-17,0.,-1.));
#206=DIRECTION('center_axis',(0.,1.,0.));
#207=DIRECTION('ref_axis',(6.12323399573677E-17,0.,-1.));
#208=DIRECTION('center_axis',(0.,-1.,0.));
#209=DIRECTION('ref_axis',(6.12323399573677E-17,0.,-1.));
#210=DIRECTION('center_axis',(0.,1.,0.));
#211=DIRECTION('ref_axis',(1.,0.,0.));
#212=DIRECTION('center_axis',(0.,1.,0.));
#213=DIRECTION('ref_axis',(1.,0.,0.));
#214=DIRECTION('center_axis',(0.,-1.,0.));
#215=DIRECTION('ref_axis',(1.,0.,0.));
#216=DIRECTION('center_axis',(0.,1.,0.));
#217=DIRECTION('ref_axis',(-1.,0.,0.));
#218=DIRECTION('center_axis',(0.,1.,0.));
#219=DIRECTION('ref_axis',(1.,0.,0.));
#220=DIRECTION('center_axis',(0.,1.,0.));
#221=DIRECTION('ref_axis',(1.,0.,0.));
#222=DIRECTION('center_axis',(0.,1.,0.));
#223=DIRECTION('ref_axis',(0.,0.,1.));
#224=DIRECTION('center_axis',(0.,1.,0.));
#225=DIRECTION('ref_axis',(1.,0.,0.));
#226=DIRECTION('center_axis',(0.,1.,0.));
#227=DIRECTION('ref_axis',(-1.,0.,0.));
#228=DIRECTION('center_axis',(0.,1.,0.));
#229=DIRECTION('ref_axis',(1.,0.,0.));
#230=DIRECTION('center_axis',(0.,1.,0.));
#231=DIRECTION('ref_axis',(0.,0.,1.));
#232=DIRECTION('center_axis',(0.,1.,0.));
#233=DIRECTION('ref_axis',(1.,0.,0.));
#234=DIRECTION('center_axis',(0.,1.,0.));
#235=DIRECTION('ref_axis',(-1.,0.,0.));
#236=DIRECTION('center_axis',(0.,1.,0.));
#237=DIRECTION('ref_axis',(1.,0.,0.));
#238=DIRECTION('center_axis',(0.,1.,0.));
#239=DIRECTION('ref_axis',(0.,0.,1.));
#240=DIRECTION('center_axis',(0.,-1.,0.));
#241=DIRECTION('ref_axis',(0.,0.,-1.));
#242=CARTESIAN_POINT('',(0.,0.,0.));
#243=CARTESIAN_POINT('Origin',(38.8908729652601,-172.332488991491,-38.8908729652601));
#244=CARTESIAN_POINT('',(38.8908729652601,0.,-43.3908729652601));
#245=CARTESIAN_POINT('Origin',(38.8908729652601,0.,-38.8908729652601));
#246=CARTESIAN_POINT('',(38.8908729652601,11.9,-34.3908729652601));
#247=CARTESIAN_POINT('Origin',(38.8908729652601,11.9,-38.8908729652601));
#248=CARTESIAN_POINT('Origin',(38.8908729652601,-172.332488991491,38.8908729652601));
#249=CARTESIAN_POINT('',(43.3908729652601,0.,38.8908729652601));
#250=CARTESIAN_POINT('Origin',(38.8908729652601,0.,38.8908729652601));
#251=CARTESIAN_POINT('',(34.3908729652601,11.9,38.8908729652601));
#252=CARTESIAN_POINT('Origin',(38.8908729652601,11.9,38.8908729652601));
#253=CARTESIAN_POINT('Origin',(-38.8908729652601,-172.332488991491,38.8908729652601));
#254=CARTESIAN_POINT('',(-38.8908729652601,0.,43.3908729652601));
#255=CARTESIAN_POINT('Origin',(-38.8908729652601,0.,38.8908729652601));
#256=CARTESIAN_POINT('',(-38.8908729652601,11.9,34.3908729652601));
#257=CARTESIAN_POINT('Origin',(-38.8908729652601,11.9,38.8908729652601));
#258=CARTESIAN_POINT('Origin',(-38.8908729652601,-172.332488991491,-38.8908729652601));
#259=CARTESIAN_POINT('',(-43.3908729652601,0.,-38.8908729652601));
#260=CARTESIAN_POINT('Origin',(-38.8908729652601,0.,-38.8908729652601));
#261=CARTESIAN_POINT('',(-34.3908729652601,11.9,-38.8908729652601));
#262=CARTESIAN_POINT('Origin',(-38.8908729652601,11.9,-38.8908729652601));
#263=CARTESIAN_POINT('Origin',(0.,5.94999999999999,0.));
#264=CARTESIAN_POINT('',(-65.,11.9,0.));
#265=CARTESIAN_POINT('Origin',(0.,11.9,0.));
#266=CARTESIAN_POINT('',(-65.,-7.9602041944578E-15,0.));
#267=CARTESIAN_POINT('Origin',(0.,-7.9602041944578E-15,0.));
#268=CARTESIAN_POINT('Origin',(-35.,11.9,0.));
#269=CARTESIAN_POINT('',(-35.,11.9,0.));
#270=CARTESIAN_POINT('Origin',(0.,11.9,0.));
#271=CARTESIAN_POINT('Origin',(0.,10.,0.));
#272=CARTESIAN_POINT('',(-35.,8.1,0.));
#273=CARTESIAN_POINT('Origin',(0.,8.1,0.));
#274=CARTESIAN_POINT('Origin',(-28.6,8.1,0.));
#275=CARTESIAN_POINT('',(-28.6,8.1,0.));
#276=CARTESIAN_POINT('Origin',(0.,8.1,0.));
#277=CARTESIAN_POINT('Origin',(0.,10.,0.));
#278=CARTESIAN_POINT('',(-28.6,11.9,0.));
#279=CARTESIAN_POINT('Origin',(0.,11.9,0.));
#280=CARTESIAN_POINT('Origin',(0.,11.9,0.));
#281=CARTESIAN_POINT('Origin',(-65.,-7.9602041944578E-15,0.));
#282=UNCERTAINTY_MEASURE_WITH_UNIT(LENGTH_MEASURE(0.01),#286,
'DISTANCE_ACCURACY_VALUE',
'Maximum model space distance between geometric entities at asserted c
onnectivities');
#283=UNCERTAINTY_MEASURE_WITH_UNIT(LENGTH_MEASURE(1.E-6),#286,
'DISTANCE_ACCURACY_VALUE',
'Maximum model space distance between geometric entities at asserted c
onnectivities');
#284=(
GEOMETRIC_REPRESENTATION_CONTEXT(3)
GLOBAL_UNCERTAINTY_ASSIGNED_CONTEXT((#282))
GLOBAL_UNIT_ASSIGNED_CONTEXT((#286,#289,#287))
REPRESENTATION_CONTEXT('','3D')
);
#285=(
GEOMETRIC_REPRESENTATION_CONTEXT(3)
GLOBAL_UNCERTAINTY_ASSIGNED_CONTEXT((#283))
GLOBAL_UNIT_ASSIGNED_CONTEXT((#286,#289,#287))
REPRESENTATION_CONTEXT('','3D')
);
#286=(
LENGTH_UNIT()
NAMED_UNIT(*)
SI_UNIT(.MILLI.,.METRE.)
);
#287=(
NAMED_UNIT(*)
SI_UNIT($,.STERADIAN.)
SOLID_ANGLE_UNIT()
);
#288=DIMENSIONAL_EXPONENTS(0.,0.,0.,0.,0.,0.,0.);
#289=(
CONVERSION_BASED_UNIT('degree',#291)
NAMED_UNIT(#288)
PLANE_ANGLE_UNIT()
);
#290=(
NAMED_UNIT(*)
PLANE_ANGLE_UNIT()
SI_UNIT($,.RADIAN.)
);
#291=PLANE_ANGLE_MEASURE_WITH_UNIT(PLANE_ANGLE_MEASURE(0.01745329252),#290);
#292=SHAPE_DEFINITION_REPRESENTATION(#293,#294);
#293=PRODUCT_DEFINITION_SHAPE('',$,#296);
#294=SHAPE_REPRESENTATION('',(#164),#284);
#295=PRODUCT_DEFINITION_CONTEXT('part definition',#300,'design');
#296=PRODUCT_DEFINITION('ISOF-BL-63','ISOF-BL-63',#297,#295);
#297=PRODUCT_DEFINITION_FORMATION('',$,#302);
#298=PRODUCT_RELATED_PRODUCT_CATEGORY('ISOF-BL-63','ISOF-BL-63',(#302));
#299=APPLICATION_PROTOCOL_DEFINITION('international standard',
'automotive_design',2009,#300);
#300=APPLICATION_CONTEXT(
'Core Data for Automotive Mechanical Design Process');
#301=PRODUCT_CONTEXT('part definition',#300,'mechanical');
#302=PRODUCT('ISOF-BL-63','ISOF-BL-63',$,(#301));
#303=PRESENTATION_STYLE_ASSIGNMENT((#304));
#304=SURFACE_STYLE_USAGE(.BOTH.,#305);
#305=SURFACE_SIDE_STYLE('',(#306));
#306=SURFACE_STYLE_FILL_AREA(#307);
#307=FILL_AREA_STYLE('',(#308));
#308=FILL_AREA_STYLE_COLOUR('',#309);
#309=COLOUR_RGB('',0.749019607843137,0.749019607843137,0.749019607843137);
ENDSEC;
END-ISO-10303-21;
